  0
SECTION
  2
HEADER
  9
$ACADVER
  1
AC1009
  9
$INSBASE
 10
54.36939399999999
 20
163.392587
 30
0.0
  9
$EXTMIN
 10
54.16228721881344
 20
163.0819268282201
 30
0.0
  9
$EXTMAX
 10
184.2848085427879
 20
218.6039059999999
 30
0.0
  9
$LIMMIN
 10
0.0
 20
0.0
  9
$LIMMAX
 10
420.0
 20
297.0
  9
$ORTHOMODE
 70
     1
  9
$REGENMODE
 70
     1
  9
$FILLMODE
 70
     1
  9
$QTEXTMODE
 70
     0
  9
$MIRRTEXT
 70
     0
  9
$DRAGMODE
 70
     2
  9
$LTSCALE
 40
1.0
  9
$OSMODE
 70
     0
  9
$ATTMODE
 70
     1
  9
$TEXTSIZE
 40
3.5
  9
$TRACEWID
 40
0.05
  9
$TEXTSTYLE
  7
STANDARD
  9
$CLAYER
  8
ITEM_50
  9
$CELTYPE
  6
BYLAYER
  9
$CECOLOR
 62
   256
  9
$DIMSCALE
 40
1.0
  9
$DIMASZ
 40
2.5
  9
$DIMEXO
 40
1.0
  9
$DIMDLI
 40
8.0
  9
$DIMRND
 40
0.0
  9
$DIMDLE
 40
0.0
  9
$DIMEXE
 40
2.0
  9
$DIMTP
 40
0.1
  9
$DIMTM
 40
0.1
  9
$DIMTXT
 40
3.5
  9
$DIMCEN
 40
2.0
  9
$DIMTSZ
 40
0.0
  9
$DIMTOL
 70
     0
  9
$DIMLIM
 70
     0
  9
$DIMTIH
 70
     0
  9
$DIMTOH
 70
     0
  9
$DIMSE1
 70
     0
  9
$DIMSE2
 70
     0
  9
$DIMTAD
 70
     1
  9
$DIMZIN
 70
     8
  9
$DIMBLK
  1

  9
$DIMASO
 70
     0
  9
$DIMSHO
 70
     0
  9
$DIMPOST
  1

  9
$DIMAPOST
  1

  9
$DIMALT
 70
     0
  9
$DIMALTD
 70
     2
  9
$DIMALTF
 40
25.39999999999999
  9
$DIMLFAC
 40
1.0
  9
$DIMTOFL
 70
     1
  9
$DIMTVP
 40
0.0
  9
$DIMTIX
 70
     0
  9
$DIMSOXD
 70
     0
  9
$DIMSAH
 70
     0
  9
$DIMBLK1
  1

  9
$DIMBLK2
  1

  9
$DIMSTYLE
  2
*UNNAMED
  9
$DIMCLRD
 70
     0
  9
$DIMCLRE
 70
     0
  9
$DIMCLRT
 70
     0
  9
$DIMTFAC
 40
1.0
  9
$DIMGAP
 40
0.09
  9
$LUNITS
 70
     2
  9
$LUPREC
 70
     3
  9
$SKETCHINC
 40
0.1
  9
$FILLETRAD
 40
1.0
  9
$AUNITS
 70
     0
  9
$AUPREC
 70
     3
  9
$MENU
  1

  9
$ELEVATION
 40
0.0
  9
$PELEVATION
 40
0.0
  9
$THICKNESS
 40
0.0
  9
$LIMCHECK
 70
     0
  9
$BLIPMODE
 70
     0
  9
$CHAMFERA
 40
0.0
  9
$CHAMFERB
 40
0.0
  9
$SKPOLY
 70
     1
  9
$TDCREATE
 40
2449058.571310879
  9
$TDUPDATE
 40
2449393.449627430
  9
$TDINDWG
 40
0.0088199074
  9
$TDUSRTIMER
 40
0.0088199074
  9
$USRTIMER
 70
     1
  9
$ANGBASE
 50
0.0
  9
$ANGDIR
 70
     0
  9
$PDMODE
 70
     3
  9
$PDSIZE
 40
2.0
  9
$PLINEWID
 40
0.0
  9
$COORDS
 70
     2
  9
$SPLFRAME
 70
     0
  9
$SPLINETYPE
 70
     6
  9
$SPLINESEGS
 70
     8
  9
$ATTDIA
 70
     1
  9
$ATTREQ
 70
     1
  9
$HANDLING
 70
     0
  9
$HANDSEED
  5
C4
  9
$SURFTAB1
 70
     6
  9
$SURFTAB2
 70
     6
  9
$SURFTYPE
 70
     6
  9
$SURFU
 70
     6
  9
$SURFV
 70
     6
  9
$UCSNAME
  2

  9
$UCSORG
 10
0.0
 20
0.0
 30
0.0
  9
$UCSXDIR
 10
1.0
 20
0.0
 30
0.0
  9
$UCSYDIR
 10
0.0
 20
1.0
 30
0.0
  9
$PUCSNAME
  2

  9
$PUCSORG
 10
0.0
 20
0.0
 30
0.0
  9
$PUCSXDIR
 10
1.0
 20
0.0
 30
0.0
  9
$PUCSYDIR
 10
0.0
 20
1.0
 30
0.0
  9
$USERI1
 70
     0
  9
$USERI2
 70
     3
  9
$USERI3
 70
    15
  9
$USERI4
 70
     0
  9
$USERI5
 70
     0
  9
$USERR1
 40
0.0
  9
$USERR2
 40
1.0
  9
$USERR3
 40
0.0
  9
$USERR4
 40
1.0
  9
$USERR5
 40
0.0
  9
$WORLDVIEW
 70
     1
  9
$SHADEDGE
 70
     3
  9
$SHADEDIF
 70
    70
  9
$TILEMODE
 70
     1
  9
$MAXACTVP
 70
    16
  9
$PINSBASE
 10
0.0
 20
0.0
 30
0.0
  9
$PLIMCHECK
 70
     0
  9
$PEXTMIN
 10
1.000000000000000E+20
 20
1.000000000000000E+20
 30
1.000000000000000E+20
  9
$PEXTMAX
 10
-1.000000000000000E+20
 20
-1.000000000000000E+20
 30
-1.000000000000000E+20
  9
$PLIMMIN
 10
0.0
 20
0.0
  9
$PLIMMAX
 10
12.0
 20
9.0
  9
$UNITMODE
 70
     0
  9
$VISRETAIN
 70
     0
  9
$PLINEGEN
 70
     0
  9
$PSLTSCALE
 70
     0
  9
$TREEDEPTH
 70
  3020
  9
$DWGCODEPAGE
  3
undefined
  0
ENDSEC
  0
SECTION
  2
TABLES
  0
TABLE
  2
VPORT
 70
     2
  0
VPORT
  2
*ACTIVE
 70
     0
 10
0.0
 20
0.0
 11
1.0
 21
1.0
 12
119.3271012713939
 22
214.3128236322368
 13
0.0
 23
0.0
 14
7.0
 24
7.0
 15
0.0
 25
0.0
 16
0.0
 26
0.0
 36
1.0
 17
0.0
 27
0.0
 37
0.0
 40
101.8404732644736
 41
1.275675675675675
 42
50.0
 43
0.0
 44
0.0
 50
0.0
 51
0.0
 71
     0
 72
 10000
 73
     1
 74
     0
 75
     0
 76
     0
 77
     0
 78
     0
  0
ENDTAB
  0
TABLE
  2
LTYPE
 70
     2
  0
LTYPE
  2
AUSGEZOGEN
 70
    64
  3
Solid line
 72
    65
 73
     0
 40
0.0
  0
LTYPE
  2
ITEM-STRICHPGR
 70
    64
  3
____ . ____ . ____ . ____ . ____ . ____ . ____
 72
    65
 73
     4
 40
15.0
 49
10.0
 49
-2.5
 49
0.0
 49
-2.5
  0
ENDTAB
  0
TABLE
  2
LAYER
 70
     4
  0
LAYER
  2
0
 70
     0
 62
     7
  6
AUSGEZOGEN
  0
LAYER
  2
ITEM_50
 70
    64
 62
     7
  6
AUSGEZOGEN
  0
LAYER
  2
ITEM_25
 70
    64
 62
     3
  6
AUSGEZOGEN
  0
LAYER
  2
ITEM_STPG
 70
    64
 62
     4
  6
ITEM-STRICHPGR
  0
ENDTAB
  0
TABLE
  2
STYLE
 70
     1
  0
STYLE
  2
STANDARD
 70
     0
 40
0.0
 41
1.0
 50
0.0
 71
     0
 42
3.5
  3
iso
  4

  0
ENDTAB
  0
TABLE
  2
VIEW
 70
     0
  0
ENDTAB
  0
TABLE
  2
UCS
 70
     0
  0
ENDTAB
  0
TABLE
  2
APPID
 70
     1
  0
APPID
  2
ACAD
 70
    64
  0
ENDTAB
  0
TABLE
  2
DIMSTYLE
 70
     0
  0
ENDTAB
  0
ENDSEC
  0
SECTION
  2
BLOCKS
  0
ENDSEC
  0
SECTION
  2
ENTITIES
  0
LINE
  8
ITEM_50
 10
176.606859
 20
184.8079823773603
 30
0.0
 11
176.606859
 21
196.7478316226396
 31
0.0
  0
LINE
  8
ITEM_50
 10
177.806859
 20
184.8079823773603
 30
0.0
 11
177.806859
 21
196.7478316226396
 31
0.0
  0
ARC
  8
ITEM_50
 10
177.206859
 20
190.7779069999999
 30
0.0
 40
5.299999999999999
 50
276.5002498920442
 51
83.4997501079557
  0
LINE
  8
ITEM_STPG
 10
177.206859
 20
183.9784454093969
 30
0.0
 11
177.206859
 21
197.9359694257411
 31
0.0
  0
LINE
  8
ITEM_STPG
 10
184.2848085427879
 20
190.7779069999999
 30
0.0
 11
170.1539563491601
 21
190.7779069999999
 31
0.0
  0
LINE
  8
ITEM_STPG
 10
68.36939399999999
 20
218.6039059999999
 30
0.0
 11
68.36939399999999
 21
200.21586
 31
0.0
  0
LINE
  8
ITEM_STPG
 10
130.4840839999999
 20
216.8735279999999
 30
0.0
 11
130.4840839999999
 21
200.5521459999999
 31
0.0
  0
LINE
  8
ITEM_STPG
 10
89.84010399999999
 20
177.392587
 30
0.0
 11
109.6971499999999
 21
177.392587
 31
0.0
  0
LINE
  8
ITEM_STPG
 10
103.1766689999999
 20
164.8568909999999
 30
0.0
 11
103.1766689999999
 21
170.045781
 31
0.0
  0
LINE
  8
ITEM_STPG
 10
95.67666899999998
 20
164.7884939999999
 30
0.0
 11
95.67666899999998
 21
170.1493669999999
 31
0.0
  0
LINE
  8
ITEM_STPG
 10
95.67666899999998
 20
184.7884939999999
 30
0.0
 11
95.67666899999998
 21
190.1493669999999
 31
0.0
  0
LINE
  8
ITEM_STPG
 10
103.1766689999999
 20
184.8568909999999
 30
0.0
 11
103.1766689999999
 21
190.045781
 31
0.0
  0
POLYLINE
  8
ITEM_STPG
 66
     1
 10
0.0
 20
0.0
 30
0.0
  0
VERTEX
  8
ITEM_STPG
 10
140.4840839999999
 20
200.663137
 30
0.0
  0
VERTEX
  8
ITEM_STPG
 10
140.4840839999999
 20
208.5071189999999
 30
0.0
  0
SEQEND
  8
ITEM_STPG
  0
LINE
  8
ITEM_STPG
 10
120.484084
 20
200.0859979999999
 30
0.0
 11
120.484084
 21
208.5210509999999
 31
0.0
  0
POLYLINE
  8
ITEM_STPG
 66
     1
 10
0.0
 20
0.0
 30
0.0
  0
VERTEX
  8
ITEM_STPG
 10
58.36939399999999
 20
200.7237389999999
 30
0.0
  0
VERTEX
  8
ITEM_STPG
 10
58.36939399999999
 20
208.2716409999999
 30
0.0
  0
SEQEND
  8
ITEM_STPG
  0
LINE
  8
ITEM_STPG
 10
78.36939399999999
 20
200.7519939999999
 30
0.0
 11
78.36939399999999
 21
208.1701649999999
 31
0.0
  0
LINE
  8
ITEM_50
 10
133.4840839999999
 20
212.2880589999999
 30
0.0
 11
127.484084
 21
212.2880589999999
 31
0.0
  0
LINE
  8
ITEM_50
 10
133.4840839999999
 20
206.6878759999999
 30
0.0
 11
127.484084
 21
206.6878759999999
 31
0.0
  0
LINE
  8
ITEM_50
 10
66.36939399999999
 20
206.6878759999999
 30
0.0
 11
70.36939399999999
 21
206.6878759999999
 31
0.0
  0
LINE
  8
ITEM_50
 10
66.36939399999999
 20
213.7880589999999
 30
0.0
 11
70.36939399999999
 21
213.7880589999999
 31
0.0
  0
LINE
  8
ITEM_50
 10
179.206859
 20
204.785008
 30
0.0
 11
175.206859
 21
204.785008
 31
0.0
  0
LINE
  8
ITEM_50
 10
175.706859
 20
204.285008
 30
0.0
 11
175.206859
 21
204.785008
 31
0.0
  0
LINE
  8
ITEM_50
 10
179.206859
 20
204.785008
 30
0.0
 11
178.706859
 21
204.285008
 31
0.0
  0
LINE
  8
ITEM_50
 10
179.206859
 20
204.785008
 30
0.0
 11
179.206859
 21
209.285008
 31
0.0
  0
LINE
  8
ITEM_50
 10
175.206859
 20
209.285008
 30
0.0
 11
175.206859
 21
204.785008
 31
0.0
  0
LINE
  8
ITEM_50
 10
175.706859
 20
204.285008
 30
0.0
 11
178.706859
 21
204.285008
 31
0.0
  0
LINE
  8
ITEM_25
 10
175.697359
 20
209.285008
 30
0.0
 11
175.697359
 21
204.285008
 31
0.0
  0
LINE
  8
ITEM_25
 10
178.716359
 20
209.285008
 30
0.0
 11
178.716359
 21
204.285008
 31
0.0
  0
LINE
  8
ITEM_50
 10
177.806859
 20
211.685008
 30
0.0
 11
182.5068589999999
 21
211.685008
 31
0.0
  0
LINE
  8
ITEM_50
 10
177.806859
 20
210.9850079999999
 30
0.0
 11
177.806859
 21
211.685008
 31
0.0
  0
LINE
  8
ITEM_50
 10
176.606859
 20
210.9850079999999
 30
0.0
 11
177.806859
 21
210.9850079999999
 31
0.0
  0
LINE
  8
ITEM_50
 10
176.606859
 20
211.685008
 30
0.0
 11
176.606859
 21
210.9850079999999
 31
0.0
  0
LINE
  8
ITEM_50
 10
171.206859
 20
210.9850079999999
 30
0.0
 11
183.206859
 21
210.9850079999999
 31
0.0
  0
LINE
  8
ITEM_50
 10
182.506859
 20
211.685008
 30
0.0
 11
183.206859
 21
210.9850079999999
 31
0.0
  0
LINE
  8
ITEM_50
 10
171.9068589999999
 20
211.685008
 30
0.0
 11
171.206859
 21
210.9850079999999
 31
0.0
  0
LINE
  8
ITEM_50
 10
171.206859
 20
209.285008
 30
0.0
 11
183.206859
 21
209.285008
 31
0.0
  0
LINE
  8
ITEM_50
 10
171.9068589999999
 20
211.685008
 30
0.0
 11
176.606859
 21
211.685008
 31
0.0
  0
LINE
  8
ITEM_STPG
 10
177.206859
 20
203.6519839999999
 30
0.0
 11
177.206859
 21
212.1576689999999
 31
0.0
  0
LINE
  8
ITEM_50
 10
106.9266689999999
 20
207.487876
 30
0.0
 11
91.92666899999998
 21
207.487876
 31
0.0
  0
LINE
  8
ITEM_50
 10
90.92666899999998
 20
202.6878759999999
 30
0.0
 11
91.92666899999998
 21
202.6878759999999
 31
0.0
  0
LINE
  8
ITEM_50
 10
90.92666899999998
 20
202.6878759999999
 30
0.0
 11
90.92666899999998
 21
201.487876
 31
0.0
  0
LINE
  8
ITEM_50
 10
106.9266689999999
 20
202.6878759999999
 30
0.0
 11
107.9266689999999
 21
202.6878759999999
 31
0.0
  0
LINE
  8
ITEM_50
 10
107.9266689999999
 20
202.6878759999999
 30
0.0
 11
107.9266689999999
 21
201.487876
 31
0.0
  0
LINE
  8
ITEM_STPG
 10
103.1766689999999
 20
207.9697209999999
 30
0.0
 11
103.1766689999999
 21
199.751953
 31
0.0
  0
LINE
  8
ITEM_STPG
 10
95.67666899999998
 20
207.9105129999999
 30
0.0
 11
95.67666899999998
 21
199.751953
 31
0.0
  0
ARC
  8
ITEM_50
 10
105.9266689999999
 20
214.4880589999999
 30
0.0
 40
1.0
 50
359.999999
 51
89.999999
  0
LINE
  8
ITEM_50
 10
105.9269419999999
 20
215.4880589999999
 30
0.0
 11
92.92653599999999
 21
215.48806
 31
0.0
  0
ARC
  8
ITEM_50
 10
92.92666899999998
 20
214.48806
 30
0.0
 40
1.0
 50
89.999999
 51
179.999999
  0
LINE
  8
ITEM_50
 10
91.92666899999998
 20
214.48806
 30
0.0
 11
91.92666899999998
 21
202.6878759999999
 31
0.0
  0
LINE
  8
ITEM_50
 10
106.9266689999999
 20
214.4880589999999
 30
0.0
 11
106.9266689999999
 21
202.6878759999999
 31
0.0
  0
LINE
  8
ITEM_50
 10
107.9266689999999
 20
201.487876
 30
0.0
 11
90.92666899999998
 21
201.487876
 31
0.0
  0
ARC
  8
ITEM_50
 10
106.4266689999999
 20
189.892587
 30
0.0
 40
1.5
 50
0.0
 51
90.0
  0
ARC
  8
ITEM_50
 10
105.4266689999999
 20
189.892587
 30
0.0
 40
1.5
 50
0.0
 51
90.0
  0
ARC
  8
ITEM_50
 10
106.4266689999999
 20
164.892587
 30
0.0
 40
1.5
 50
270.0
 51
0.0
  0
ARC
  8
ITEM_50
 10
105.4266689999999
 20
164.892587
 30
0.0
 40
1.5
 50
270.0
 51
0.0
  0
ARC
  8
ITEM_50
 10
92.42666899999998
 20
164.892587
 30
0.0
 40
1.5
 50
180.0
 51
270.0
  0
ARC
  8
ITEM_50
 10
93.42666899999998
 20
164.892587
 30
0.0
 40
1.5
 50
180.0
 51
270.0
  0
ARC
  8
ITEM_50
 10
92.42666899999998
 20
189.892587
 30
0.0
 40
1.5
 50
90.0
 51
180.0
  0
ARC
  8
ITEM_50
 10
93.42666899999998
 20
189.892587
 30
0.0
 40
1.5
 50
90.0
 51
180.0
  0
LINE
  8
ITEM_50
 10
128.4840839999999
 20
212.2880589999999
 30
0.0
 11
128.4840839999999
 21
206.6878759999999
 31
0.0
  0
LINE
  8
ITEM_50
 10
132.4840839999999
 20
212.2880589999999
 30
0.0
 11
132.4840839999999
 21
206.6878759999999
 31
0.0
  0
LINE
  8
ITEM_50
 10
124.484084
 20
207.487876
 30
0.0
 11
124.484084
 21
214.4880589999999
 31
0.0
  0
LINE
  8
ITEM_50
 10
136.4840839999999
 20
207.487876
 30
0.0
 11
136.4840839999999
 21
214.4880589999999
 31
0.0
  0
LINE
  8
ITEM_50
 10
125.484084
 20
207.487876
 30
0.0
 11
117.484084
 21
207.487876
 31
0.0
  0
LINE
  8
ITEM_50
 10
135.4840839999999
 20
207.487876
 30
0.0
 11
143.4840839999999
 21
207.487876
 31
0.0
  0
LINE
  8
ITEM_50
 10
135.4840839999999
 20
215.4880589999999
 30
0.0
 11
125.484084
 21
215.4880589999999
 31
0.0
  0
LINE
  8
ITEM_50
 10
116.484084
 20
206.487876
 30
0.0
 11
116.484084
 21
201.487876
 31
0.0
  0
LINE
  8
ITEM_50
 10
144.4840839999999
 20
201.487876
 30
0.0
 11
116.484084
 21
201.487876
 31
0.0
  0
LINE
  8
ITEM_50
 10
127.484084
 20
205.487876
 30
0.0
 11
127.484084
 21
215.4880589999999
 31
0.0
  0
LINE
  8
ITEM_50
 10
133.4840839999999
 20
205.487876
 30
0.0
 11
133.4840839999999
 21
215.4880589999999
 31
0.0
  0
LINE
  8
ITEM_50
 10
133.4840839999999
 20
205.487876
 30
0.0
 11
127.484084
 21
205.487876
 31
0.0
  0
LINE
  8
ITEM_50
 10
133.4840839999999
 20
213.4880589999999
 30
0.0
 11
127.484084
 21
213.4880589999999
 31
0.0
  0
LINE
  8
ITEM_50
 10
92.92666899999998
 20
183.392587
 30
0.0
 11
105.9266689999999
 21
183.392587
 31
0.0
  0
LINE
  8
ITEM_50
 10
105.9266689999999
 20
171.392587
 30
0.0
 11
92.92666899999998
 21
171.392587
 31
0.0
  0
LINE
  8
ITEM_STPG
 10
90.92666899999998
 20
187.392587
 30
0.0
 11
107.9266689999999
 21
187.392587
 31
0.0
  0
ARC
  8
ITEM_50
 10
95.57666899999999
 20
187.392587
 30
0.0
 40
2.149999999999999
 50
90.0
 51
270.0
  0
LINE
  8
ITEM_50
 10
92.42666899999998
 20
163.392587
 30
0.0
 11
106.4266689999999
 21
163.392587
 31
0.0
  0
LINE
  8
ITEM_50
 10
106.9266689999999
 20
164.892587
 30
0.0
 11
106.9266689999999
 21
189.892587
 31
0.0
  0
LINE
  8
ITEM_50
 10
106.4266689999999
 20
191.392587
 30
0.0
 11
92.42666899999998
 21
191.392587
 31
0.0
  0
LINE
  8
ITEM_50
 10
91.92666899999998
 20
189.892587
 30
0.0
 11
91.92666899999998
 21
164.892587
 31
0.0
  0
ARC
  8
ITEM_50
 10
103.2766689999999
 20
187.392587
 30
0.0
 40
2.149999999999999
 50
270.0
 51
90.0
  0
LINE
  8
ITEM_50
 10
95.57666899999999
 20
189.5425869999999
 30
0.0
 11
103.2766689999999
 21
189.5425869999999
 31
0.0
  0
LINE
  8
ITEM_50
 10
103.2766689999999
 20
185.242587
 30
0.0
 11
95.57666899999999
 21
185.242587
 31
0.0
  0
LINE
  8
ITEM_50
 10
103.2766689999999
 20
169.5425869999999
 30
0.0
 11
95.57666899999999
 21
169.5425869999999
 31
0.0
  0
LINE
  8
ITEM_50
 10
95.57666899999999
 20
165.242587
 30
0.0
 11
103.2766689999999
 21
165.242587
 31
0.0
  0
ARC
  8
ITEM_50
 10
103.2766689999999
 20
167.392587
 30
0.0
 40
2.149999999999999
 50
270.0
 51
90.0
  0
ARC
  8
ITEM_50
 10
95.57666899999999
 20
167.392587
 30
0.0
 40
2.149999999999999
 50
90.0
 51
270.0
  0
LINE
  8
ITEM_STPG
 10
90.92666899999998
 20
167.392587
 30
0.0
 11
107.9266689999999
 21
167.392587
 31
0.0
  0
LINE
  8
ITEM_50
 10
66.36939399999999
 20
214.9880589999999
 30
0.0
 11
70.36939399999999
 21
214.9880589999999
 31
0.0
  0
LINE
  8
ITEM_50
 10
66.36939399999999
 20
205.487876
 30
0.0
 11
70.36939399999999
 21
205.487876
 31
0.0
  0
LINE
  8
ITEM_50
 10
66.36939399999999
 20
205.487876
 30
0.0
 11
66.36939399999999
 21
216.9880589999999
 31
0.0
  0
LINE
  8
ITEM_50
 10
70.36939399999999
 20
205.487876
 30
0.0
 11
70.36939399999999
 21
216.9880589999999
 31
0.0
  0
LINE
  8
ITEM_50
 10
54.36939399999999
 20
201.487876
 30
0.0
 11
82.36939399999999
 21
201.487876
 31
0.0
  0
LINE
  8
ITEM_50
 10
82.36939399999999
 20
206.487876
 30
0.0
 11
82.36939399999999
 21
201.487876
 31
0.0
  0
LINE
  8
ITEM_50
 10
63.36939399999999
 20
216.9880589999999
 30
0.0
 11
73.36939399999999
 21
216.9880589999999
 31
0.0
  0
LINE
  8
ITEM_50
 10
63.36939399999999
 20
207.487876
 30
0.0
 11
55.36939399999999
 21
207.487876
 31
0.0
  0
LINE
  8
ITEM_50
 10
73.36939399999999
 20
207.487876
 30
0.0
 11
81.36939399999999
 21
207.487876
 31
0.0
  0
LINE
  8
ITEM_50
 10
62.36939399999999
 20
207.487876
 30
0.0
 11
62.36939399999999
 21
215.9880589999999
 31
0.0
  0
LINE
  8
ITEM_50
 10
74.36939399999999
 20
207.487876
 30
0.0
 11
74.36939399999999
 21
215.9880589999999
 31
0.0
  0
ARC
  8
ITEM_50
 10
92.92666899999998
 20
182.392587
 30
0.0
 40
1.0
 50
90.0
 51
180.0
  0
ARC
  8
ITEM_50
 10
92.92666899999998
 20
172.392587
 30
0.0
 40
1.0
 50
180.0
 51
270.0
  0
ARC
  8
ITEM_50
 10
105.9266689999999
 20
172.392587
 30
0.0
 40
1.0
 50
270.0
 51
0.0
  0
ARC
  8
ITEM_50
 10
105.9266689999999
 20
182.392587
 30
0.0
 40
1.0
 50
0.0
 51
90.0
  0
ARC
  8
ITEM_50
 10
125.484084
 20
214.4880589999999
 30
0.0
 40
1.0
 50
90.0
 51
180.0
  0
ARC
  8
ITEM_50
 10
135.4840839999999
 20
214.4880589999999
 30
0.0
 40
1.0
 50
0.0
 51
90.0
  0
ARC
  8
ITEM_50
 10
63.36939399999999
 20
215.9880589999999
 30
0.0
 40
1.0
 50
90.0
 51
180.0
  0
ARC
  8
ITEM_50
 10
73.36939399999999
 20
215.9880589999999
 30
0.0
 40
1.0
 50
0.0
 51
90.0
  0
LINE
  8
ITEM_50
 10
91.92666899999998
 20
180.392587
 30
0.0
 11
93.42666899999998
 21
180.392587
 31
0.0
  0
LINE
  8
ITEM_50
 10
91.92666899999998
 20
174.392587
 30
0.0
 11
93.42666899999998
 21
174.392587
 31
0.0
  0
LINE
  8
ITEM_50
 10
106.9266689999999
 20
175.392587
 30
0.0
 11
105.4266689999999
 21
175.392587
 31
0.0
  0
LINE
  8
ITEM_50
 10
106.9266689999999
 20
179.392587
 30
0.0
 11
105.4266689999999
 21
179.392587
 31
0.0
  0
LINE
  8
ITEM_50
 10
105.4266689999999
 20
175.392587
 30
0.0
 11
105.4266689999999
 21
179.392587
 31
0.0
  0
LINE
  8
ITEM_50
 10
93.42666899999998
 20
180.392587
 30
0.0
 11
93.42666899999998
 21
174.392587
 31
0.0
  0
LINE
  8
ITEM_50
 10
144.4840839999999
 20
202.6878759999999
 30
0.0
 11
116.484084
 21
202.6878759999999
 31
0.0
  0
LINE
  8
ITEM_50
 10
54.36939399999999
 20
202.6878759999999
 30
0.0
 11
82.36939399999999
 21
202.6878759999999
 31
0.0
  0
LINE
  8
ITEM_50
 10
90.92666899999998
 20
189.892587
 30
0.0
 11
90.92666899999998
 21
164.892587
 31
0.0
  0
LINE
  8
ITEM_50
 10
107.9266689999999
 20
164.892587
 30
0.0
 11
107.9266689999999
 21
189.892587
 31
0.0
  0
ARC
  8
ITEM_50
 10
81.36939399999999
 20
206.487876
 30
0.0
 40
1.0
 50
0.0
 51
90.0
  0
LINE
  8
ITEM_50
 10
54.36939399999999
 20
201.487876
 30
0.0
 11
54.36939399999999
 21
206.487876
 31
0.0
  0
ARC
  8
ITEM_50
 10
55.36939399999999
 20
206.487876
 30
0.0
 40
1.0
 50
90.0
 51
180.0
  0
LINE
  8
ITEM_50
 10
144.4840839999999
 20
201.487876
 30
0.0
 11
144.4840839999999
 21
206.487876
 31
0.0
  0
ARC
  8
ITEM_50
 10
143.4840839999999
 20
206.487876
 30
0.0
 40
1.0
 50
0.0
 51
90.0
  0
ARC
  8
ITEM_50
 10
117.484084
 20
206.487876
 30
0.0
 40
1.0
 50
90.0
 51
180.0
  0
LINE
  8
ITEM_50
 10
171.206859
 20
210.9850079999999
 30
0.0
 11
171.206859
 21
209.285008
 31
0.0
  0
LINE
  8
ITEM_50
 10
183.206859
 20
210.9850079999999
 30
0.0
 11
183.206859
 21
209.285008
 31
0.0
  0
CIRCLE
  8
ITEM_50
 10
177.206859
 20
190.7779069999999
 30
0.0
 40
6.0
  0
ARC
  8
ITEM_50
 10
177.206859
 20
190.7779069999999
 30
0.0
 40
5.299999999999999
 50
96.50024989204429
 51
263.4997501079557
  0
ENDSEC
  0
EOF
